Darmiyan Inkaar Guitar Chords and tab

  (G)                                             (F)      
Kyun nigahe nigahon ko shiqwe sunaye
  (G)                                             (F)      
Murda afsurda lafzon ki maani jagaaye
  (G)                                             (F)      
Jo hai khud se shiqayat, Kyun tujhko bataye
  (G)                                                    (F)      
Kyun hum yaadon ke rangon se khwabon ko sajaye
               (G)                 (F)             (A)            (G)              
Ye kaisi baat badh rahi hai, Tere mere darmiyan
               (G)                 (F)             (A)            (G)              
Ye kaisi baat jag rahi hai, Tere mere darmiyan
               (G)                 (F)             (A)            (G)              
Kyun subah khil rahi hai, Tere mere darmiyan
               (G)                 (F)             (A)            (G)              
Kyun shaam dhal rahi hai, Tere mere darmiyan


  (G)                                             (F)      
Kyun nigahe nigahon ko shiqwe sunaye
  (G)                                             (F)      
Murda afsurda lafzon ke maani jagaye

solo


e------------------------------------
b------------------------------------
g--10br--/12-12-12---10br--/12-12-12-
d------------------------------------
a------------------------------------
E------------------------------------

e---------------------------------
b-------------13--12---12-12-12---
g------10--12---------------------
d--12-----------------------------
a---------------------------------
E---------------------------------


e---------------------------------
b--12br 12-12-12----12br--12-12-12
g---------------------------------
d---------------------------------
a---------------------------------
E---------------------------------

e---------------------------------
b--13b--12b--10b------------------
g-----------------12b--10b-----10-
d---------------------------12----
a---------------------------------
E---------------------------------

e-----------------------------------
b-----------------------------------
g--10br--/12--12-12--10br-/12--12-12
d-----------------------------------
a-----------------------------------
E-----------------------------------

e-----------------------------------
b----------12-13-15---15-15-15-----
g--10--12--------------------------
d----------------------------------
a----------------------------------
E----------------------------------

e
b--17br-17br-17br-15br-13br-12br--
g---------------------------------
d---------------------------------
a---------------------------------
E---------------------------------

e-----------12-13-12----12----------
b--12-13-15----------15----15-14----
g--------------------------------12-
d-----------------------------------
a-----------------------------------
E-----------------------------------

0 Response to "Darmiyan Inkaar Guitar Chords and tab"

Post a Comment

Featured post

Main Phir Bhi Tumko Chahunga - Guitar Chords and lesson

Song: Phir Bhi Tumko Chahunga Singers: Arijit Singh, Shashaa Tirupati Lyrics: Manoj Muntashir Music: Mithoon Music Label: Zee...

Total Pageviews

FInd Us On Facebook